Garou - neoficiální český web

Akordy

Accidental - akordy

Zdroj: abc-tabs.com
Am9 F7M/6 Cadd9 Dadd9
We're all angels that fall from grace
Am9 F7M/6 Cadd9 Dadd9
So you don't have to hide your face from me
Am9 F7M/6 Cadd9 Dadd9
It's the burden you won't lay down
Am9 F7M/6 Cadd9 Dadd9
It's the guilt that you carry around

Dm7 Em7 F
You can see it coming
Gadd9 Dm7 Em7 F
But somehow you can't seem to avoid it
/a /b /c (basses sur 5ème corde : cases 0,2,3)
Avoid this


Am F C G
Life is accidental and
Am F C G
Things happen coincidentally
F G
I never meant to hurt you
F
You never meant to hurt me
G E7/G# Am9 E7/G#=420100
But we all get our hands a little dirty ou E7=020100
F7M/6 Cadd9 Dadd9 Am9
Na na na na na dirty
F7M/6 Cadd9 Dadd9
Na na na na na

Let it out and let me inside
Tell me things that you feel you need to hide
All your secrets can't be worse than mine
So come closer and hold me tight

Do you feel the poison running
From your veins into an empty nothing, nothingness

Life is accidental and
Things happen coincidentally
I never meant to hurt you
You never meant to hurt me
But we all get our hands a little dirty

Don't be down, just look around
C G/B G/B =x20003
There's no one perfect in this town
Dm
Don't beat yourself up
F
Like everyone else does
C G Am F C
Goodbye feeling, all guilts turn around
G/B Am F C
Turn around
G/B
Do you know that

Life is accidental and
Things happen coincidentally
I never meant to hurt you
You never meant to hurt me
But we all get our hands a little dirty

Nanananana dirty
Nanananana

INTRO :
Am(add9) F7M(6) Cadd9 Dadd9
D# ----||-----------0---------------0-----|----------0------------------||
A# ----||--------------0---------------3--|-------------3---------------||
F# ----||*-----------------------2--------|----------------------------*||
C# ----||*-------2--------3---------------|-------2--------0-----------*||
G# ----||---0-----------------------------|--3--------------------------||
D# -3--||---------------------------------|-------------------------3---||


Am(add9) F7M(6) Cadd9 Dadd9
||-----------0---------------0-----|----------0--------------0------||
||--------------0---------------3--|-------------3--------------3---||
||*-----------------------2--------|----------------------2--------*||
||*-------2--------3---------------|-------2--------0--------------*||
||---0-----------------------------|--3-----------------------------||
||---------------------------------|--------------------------------||
Žádné komentáře